ISO-10303-21;
HEADER;
FILE_DESCRIPTION (( 'STEP AP203' ),
    '1' );
FILE_NAME ('B270-RNDF-25.4-0.3.STEP',
    '2021-01-05T01:23:01',
    ( '' ),
    ( '' ),
    'SwSTEP 2.0',
    'SolidWorks 2020',
    '' );
FILE_SCHEMA (( 'CONFIG_CONTROL_DESIGN' ));
ENDSEC;

DATA;
#1 = CALENDAR_DATE ( 2021, 5, 1 ) ;
#2 = APPROVAL_STATUS ( 'not_yet_approved' ) ;
#3 = APPROVAL_PERSON_ORGANIZATION ( #68, #165, #75 ) ;
#4 = PERSON_AND_ORGANIZATION ( #138, #25 ) ;
#5 = UNCERTAINTY_MEASURE_WITH_UNIT (LENGTH_MEASURE( 1.000000000000000082E-05 ), #143, 'distance_accuracy_value', 'NONE');
#6 = CARTESIAN_POINT ( 'NONE',  ( -1.187907395172932594E-15, 1.555301434917138433E-15, -12.69999999999999929 ) ) ;
#7 = FACE_OUTER_BOUND ( 'NONE', #80, .T. ) ;
#8 = ORIENTED_EDGE ( 'NONE', *, *, #156, .F. ) ;
#9 = DIRECTION ( 'NONE',  ( 1.000000000000000000, 0.000000000000000000, 0.000000000000000000 ) ) ;
#10 = CALENDAR_DATE ( 2021, 5, 1 ) ;
#11 = CARTESIAN_POINT ( 'NONE',  ( -1.187907395172932594E-15, 0.000000000000000000, 0.000000000000000000 ) ) ;
#12 = CARTESIAN_POINT ( 'NONE',  ( 0.000000000000000000, 0.000000000000000000, 0.000000000000000000 ) ) ;
#13 = DATE_AND_TIME ( #77, #164 ) ;
#14 = CC_DESIGN_SECURITY_CLASSIFICATION ( #135, ( #53 ) ) ;
#15 = MANIFOLD_SOLID_BREP ( 'Ðý×', #69 ) ;
#16 = CC_DESIGN_APPROVAL ( #165, ( #53 ) ) ;
#17 = CC_DESIGN_DATE_AND_TIME_ASSIGNMENT ( #13, #144, ( #135 ) ) ;
#18 = PERSON_AND_ORGANIZATION ( #138, #25 ) ;
#19 = DATE_TIME_ROLE ( 'creation_date' ) ;
#20 = PRODUCT ( 'B270-RNDF-25.4-0.3', 'B270-RNDF-25.4-0.3', '', ( #142 ) ) ;
#21 = ORIENTED_EDGE ( 'NONE', *, *, #172, .F. ) ;
#22 = COORDINATED_UNIVERSAL_TIME_OFFSET ( 8, 0, .AHEAD. ) ;
#23 = DIRECTION ( 'NONE',  ( 0.000000000000000000, 0.000000000000000000, 1.000000000000000000 ) ) ;
#24 = AXIS2_PLACEMENT_3D ( 'NONE', #171, #59, #137 ) ;
#25 = ORGANIZATION ( 'UNSPECIFIED', 'UNSPECIFIED', '' ) ;
#26 = EDGE_CURVE ( 'NONE', #70, #148, #97, .T. ) ;
#27 = ADVANCED_FACE ( 'NONE', ( #33 ), #60, .F. ) ;
#28 = AXIS2_PLACEMENT_3D ( 'NONE', #153, #98, #88 ) ;
#29 = ORIENTED_EDGE ( 'NONE', *, *, #127, .F. ) ;
#30 = VERTEX_POINT ( 'NONE', #6 ) ;
#31 = CC_DESIGN_PERSON_AND_ORGANIZATION_ASSIGNMENT ( #18, #57, ( #20 ) ) ;
#32 = PERSON_AND_ORGANIZATION_ROLE ( 'creator' ) ;
#33 = FACE_OUTER_BOUND ( 'NONE', #83, .T. ) ;
#34 = APPLICATION_PROTOCOL_DEFINITION ( 'international standard', 'config_control_design', 1994, #111 ) ;
#35 = ORIENTED_EDGE ( 'NONE', *, *, #163, .T. ) ;
#36 = DIRECTION ( 'NONE',  ( 0.000000000000000000, 0.000000000000000000, 1.000000000000000000 ) ) ;
#37 = PERSON_AND_ORGANIZATION ( #138, #25 ) ;
#38 = APPROVAL_DATE_TIME ( #51, #170 ) ;
#39 = ADVANCED_FACE ( 'NONE', ( #7 ), #169, .F. ) ;
#40 = SECURITY_CLASSIFICATION_LEVEL ( 'unclassified' ) ;
#41 = COORDINATED_UNIVERSAL_TIME_OFFSET ( 8, 0, .AHEAD. ) ;
#42 = CIRCLE ( 'NONE', #101, 12.69999999999999929 ) ;
#43 = CC_DESIGN_PERSON_AND_ORGANIZATION_ASSIGNMENT ( #146, #157, ( #53 ) ) ;
#44 = FACE_OUTER_BOUND ( 'NONE', #92, .T. ) ;
#45 = DIRECTION ( 'NONE',  ( 0.000000000000000000, 0.000000000000000000, -1.000000000000000000 ) ) ;
#46 = DIRECTION ( 'NONE',  ( 0.000000000000000000, 0.000000000000000000, 1.000000000000000000 ) ) ;
#47 = VECTOR ( 'NONE', #84, 1000.000000000000000 ) ;
#48 = CARTESIAN_POINT ( 'NONE',  ( 0.000000000000000000, 0.000000000000000000, 12.69999999999999929 ) ) ;
#49 = DIRECTION ( 'NONE',  ( -1.000000000000000000, -0.000000000000000000, -0.000000000000000000 ) ) ;
#50 = FACE_OUTER_BOUND ( 'NONE', #141, .T. ) ;
#51 = DATE_AND_TIME ( #1, #79 ) ;
#52 = AXIS2_PLACEMENT_3D ( 'NONE', #11, #105, #61 ) ;
#53 = PRODUCT_DEFINITION_FORMATION_WITH_SPECIFIED_SOURCE ( 'ANY', '', #20, .NOT_KNOWN. ) ;
#54 = ORIENTED_EDGE ( 'NONE', *, *, #26, .F. ) ;
#55 = APPROVAL_PERSON_ORGANIZATION ( #110, #170, #107 ) ;
#56 = ORIENTED_EDGE ( 'NONE', *, *, #156, .T. ) ;
#57 = PERSON_AND_ORGANIZATION_ROLE ( 'design_owner' ) ;
#58 = AXIS2_PLACEMENT_3D ( 'NONE', #155, #62, #46 ) ;
#59 = DIRECTION ( 'NONE',  ( -1.000000000000000000, 0.000000000000000000, -0.000000000000000000 ) ) ;
#60 = PLANE ( 'NONE',  #24 ) ;
#61 = DIRECTION ( 'NONE',  ( 0.000000000000000000, 0.000000000000000000, 1.000000000000000000 ) ) ;
#62 = DIRECTION ( 'NONE',  ( -1.000000000000000000, -0.000000000000000000, -0.000000000000000000 ) ) ;
#63 = CC_DESIGN_APPROVAL ( #173, ( #91 ) ) ;
#64 = SHAPE_DEFINITION_REPRESENTATION ( #154, #158 ) ;
#65 = PERSON_AND_ORGANIZATION_ROLE ( 'classification_officer' ) ;
#66 = DIRECTION ( 'NONE',  ( -1.000000000000000000, -0.000000000000000000, -0.000000000000000000 ) ) ;
#67 = ORIENTED_EDGE ( 'NONE', *, *, #26, .T. ) ;
#68 = PERSON_AND_ORGANIZATION ( #138, #25 ) ;
#69 = CLOSED_SHELL ( 'NONE', ( #87, #136, #27, #39 ) ) ;
#70 = VERTEX_POINT ( 'NONE', #132 ) ;
#71 = COORDINATED_UNIVERSAL_TIME_OFFSET ( 8, 0, .AHEAD. ) ;
#72 = ORIENTED_EDGE ( 'NONE', *, *, #163, .F. ) ;
#73 = CC_DESIGN_DATE_AND_TIME_ASSIGNMENT ( #134, #19, ( #91 ) ) ;
#74 = CARTESIAN_POINT ( 'NONE',  ( -1.187907395172932594E-15, 0.000000000000000000, 12.69999999999999929 ) ) ;
#75 = APPROVAL_ROLE ( '' ) ;
#76 =( GEOMETRIC_REPRESENTATION_CONTEXT ( 3 ) GLOBAL_UNCERTAINTY_ASSIGNED_CONTEXT ( ( #5 ) ) GLOBAL_UNIT_ASSIGNED_CONTEXT ( ( #143, #119, #89 ) ) REPRESENTATION_CONTEXT ( 'NONE', 'WORKASPACE' ) );
#77 = CALENDAR_DATE ( 2021, 5, 1 ) ;
#78 = LOCAL_TIME ( 9, 23, 1.000000000000000000, #41 ) ;
#79 = LOCAL_TIME ( 9, 23, 1.000000000000000000, #147 ) ;
#80 = EDGE_LOOP ( 'NONE', ( #118, #150 ) ) ;
#81 = CARTESIAN_POINT ( 'NONE',  ( 0.000000000000000000, 0.000000000000000000, 0.000000000000000000 ) ) ;
#82 = CARTESIAN_POINT ( 'NONE',  ( 0.000000000000000000, 0.000000000000000000, 0.000000000000000000 ) ) ;
#83 = EDGE_LOOP ( 'NONE', ( #54, #72 ) ) ;
#84 = DIRECTION ( 'NONE',  ( -1.000000000000000000, -0.000000000000000000, -0.000000000000000000 ) ) ;
#85 = LINE ( 'NONE', #168, #47 ) ;
#86 = APPROVAL_DATE_TIME ( #122, #165 ) ;
#87 = ADVANCED_FACE ( 'NONE', ( #44 ), #103, .T. ) ;
#88 = DIRECTION ( 'NONE',  ( 0.000000000000000000, 0.000000000000000000, 1.000000000000000000 ) ) ;
#89 =( NAMED_UNIT ( * ) SI_UNIT ( $, .STERADIAN. ) SOLID_ANGLE_UNIT ( ) );
#90 = APPROVAL_DATE_TIME ( #104, #173 ) ;
#91 = PRODUCT_DEFINITION ( 'UNKNOWN', '', #53, #149 ) ;
#92 = EDGE_LOOP ( 'NONE', ( #67, #56, #29, #21 ) ) ;
#93 = AXIS2_PLACEMENT_3D ( 'NONE', #82, #36, #133 ) ;
#94 = LINE ( 'NONE', #48, #159 ) ;
#95 = CC_DESIGN_PERSON_AND_ORGANIZATION_ASSIGNMENT ( #4, #126, ( #53 ) ) ;
#96 = CC_DESIGN_PERSON_AND_ORGANIZATION_ASSIGNMENT ( #109, #65, ( #135 ) ) ;
#97 = CIRCLE ( 'NONE', #28, 12.69999999999999929 ) ;
#98 = DIRECTION ( 'NONE',  ( -1.000000000000000000, -0.000000000000000000, -0.000000000000000000 ) ) ;
#99 = ORIENTED_EDGE ( 'NONE', *, *, #112, .F. ) ;
#100 = CARTESIAN_POINT ( 'NONE',  ( -1.187907395172932594E-15, 0.000000000000000000, 0.000000000000000000 ) ) ;
#101 = AXIS2_PLACEMENT_3D ( 'NONE', #100, #175, #120 ) ;
#102 = APPROVAL_STATUS ( 'not_yet_approved' ) ;
#103 = CYLINDRICAL_SURFACE ( 'NONE', #113, 12.69999999999999929 ) ;
#104 = DATE_AND_TIME ( #10, #161 ) ;
#105 = DIRECTION ( 'NONE',  ( -1.000000000000000000, -0.000000000000000000, -0.000000000000000000 ) ) ;
#106 = APPLICATION_PROTOCOL_DEFINITION ( 'international standard', 'config_control_design', 1994, #131 ) ;
#107 = APPROVAL_ROLE ( '' ) ;
#108 = COORDINATED_UNIVERSAL_TIME_OFFSET ( 8, 0, .AHEAD. ) ;
#109 = PERSON_AND_ORGANIZATION ( #138, #25 ) ;
#110 = PERSON_AND_ORGANIZATION ( #138, #25 ) ;
#111 = APPLICATION_CONTEXT ( 'configuration controlled 3d designs of mechanical parts and assemblies' ) ;
#112 = EDGE_CURVE ( 'NONE', #30, #166, #42, .T. ) ;
#113 = AXIS2_PLACEMENT_3D ( 'NONE', #81, #66, #115 ) ;
#114 = CARTESIAN_POINT ( 'NONE',  ( 1.999999999999998224, 1.555301434917138433E-15, -12.69999999999999929 ) ) ;
#115 = DIRECTION ( 'NONE',  ( 0.000000000000000000, 0.000000000000000000, 1.000000000000000000 ) ) ;
#116 = DIRECTION ( 'NONE',  ( -1.000000000000000000, -0.000000000000000000, -0.000000000000000000 ) ) ;
#117 = ORIENTED_EDGE ( 'NONE', *, *, #172, .T. ) ;
#118 = ORIENTED_EDGE ( 'NONE', *, *, #127, .T. ) ;
#119 =( NAMED_UNIT ( * ) PLANE_ANGLE_UNIT ( ) SI_UNIT ( $, .RADIAN. ) );
#120 = DIRECTION ( 'NONE',  ( 0.000000000000000000, 0.000000000000000000, 1.000000000000000000 ) ) ;
#121 = CYLINDRICAL_SURFACE ( 'NONE', #139, 12.69999999999999929 ) ;
#122 = DATE_AND_TIME ( #125, #78 ) ;
#123 = LOCAL_TIME ( 9, 23, 1.000000000000000000, #22 ) ;
#124 = AXIS2_PLACEMENT_3D ( 'NONE', #167, #9, #45 ) ;
#125 = CALENDAR_DATE ( 2021, 5, 1 ) ;
#126 = PERSON_AND_ORGANIZATION_ROLE ( 'creator' ) ;
#127 = EDGE_CURVE ( 'NONE', #166, #30, #151, .T. ) ;
#128 = CIRCLE ( 'NONE', #58, 12.69999999999999929 ) ;
#129 = CC_DESIGN_PERSON_AND_ORGANIZATION_ASSIGNMENT ( #152, #32, ( #91 ) ) ;
#130 = APPROVAL_PERSON_ORGANIZATION ( #37, #173, #140 ) ;
#131 = APPLICATION_CONTEXT ( 'configuration controlled 3d designs of mechanical parts and assemblies' ) ;
#132 = CARTESIAN_POINT ( 'NONE',  ( 1.999999999999998224, 0.000000000000000000, 12.69999999999999929 ) ) ;
#133 = DIRECTION ( 'NONE',  ( 1.000000000000000000, 0.000000000000000000, 0.000000000000000000 ) ) ;
#134 = DATE_AND_TIME ( #174, #123 ) ;
#135 = SECURITY_CLASSIFICATION ( '', '', #40 ) ;
#136 = ADVANCED_FACE ( 'NONE', ( #50 ), #121, .T. ) ;
#137 = DIRECTION ( 'NONE',  ( -0.000000000000000000, 0.000000000000000000, 1.000000000000000000 ) ) ;
#138 = PERSON ( 'UNSPECIFIED', 'UNSPECIFIED', 'UNSPECIFIED', ('UNSPECIFIED'), ('UNSPECIFIED'), ('UNSPECIFIED') ) ;
#139 = AXIS2_PLACEMENT_3D ( 'NONE', #12, #49, #23 ) ;
#140 = APPROVAL_ROLE ( '' ) ;
#141 = EDGE_LOOP ( 'NONE', ( #8, #35, #117, #99 ) ) ;
#142 = MECHANICAL_CONTEXT ( 'NONE', #111, 'mechanical' ) ;
#143 =( LENGTH_UNIT ( ) NAMED_UNIT ( * ) SI_UNIT ( .MILLI., .METRE. ) );
#144 = DATE_TIME_ROLE ( 'classification_date' ) ;
#145 = APPROVAL_STATUS ( 'not_yet_approved' ) ;
#146 = PERSON_AND_ORGANIZATION ( #138, #25 ) ;
#147 = COORDINATED_UNIVERSAL_TIME_OFFSET ( 8, 0, .AHEAD. ) ;
#148 = VERTEX_POINT ( 'NONE', #114 ) ;
#149 = DESIGN_CONTEXT ( 'detailed design', #131, 'design' ) ;
#150 = ORIENTED_EDGE ( 'NONE', *, *, #112, .T. ) ;
#151 = CIRCLE ( 'NONE', #52, 12.69999999999999929 ) ;
#152 = PERSON_AND_ORGANIZATION ( #138, #25 ) ;
#153 = CARTESIAN_POINT ( 'NONE',  ( 1.999999999999998224, 0.000000000000000000, 0.000000000000000000 ) ) ;
#154 = PRODUCT_DEFINITION_SHAPE ( 'NONE', 'NONE',  #91 ) ;
#155 = CARTESIAN_POINT ( 'NONE',  ( 1.999999999999998224, 0.000000000000000000, 0.000000000000000000 ) ) ;
#156 = EDGE_CURVE ( 'NONE', #148, #30, #85, .T. ) ;
#157 = PERSON_AND_ORGANIZATION_ROLE ( 'design_supplier' ) ;
#158 = ADVANCED_BREP_SHAPE_REPRESENTATION ( 'B270-RNDF-25.4-0.3', ( #15, #93 ), #76 ) ;
#159 = VECTOR ( 'NONE', #116, 1000.000000000000000 ) ;
#160 = CC_DESIGN_APPROVAL ( #170, ( #135 ) ) ;
#161 = LOCAL_TIME ( 9, 23, 1.000000000000000000, #71 ) ;
#162 = PRODUCT_RELATED_PRODUCT_CATEGORY ( 'detail', '', ( #20 ) ) ;
#163 = EDGE_CURVE ( 'NONE', #148, #70, #128, .T. ) ;
#164 = LOCAL_TIME ( 9, 23, 1.000000000000000000, #108 ) ;
#165 = APPROVAL ( #2, 'UNSPECIFIED' ) ;
#166 = VERTEX_POINT ( 'NONE', #74 ) ;
#167 = CARTESIAN_POINT ( 'NONE',  ( -5.939536975864662969E-16, 12.69999999999999929, 0.000000000000000000 ) ) ;
#168 = CARTESIAN_POINT ( 'NONE',  ( 0.000000000000000000, 1.555301434917138433E-15, -12.69999999999999929 ) ) ;
#169 = PLANE ( 'NONE',  #124 ) ;
#170 = APPROVAL ( #145, 'UNSPECIFIED' ) ;
#171 = CARTESIAN_POINT ( 'NONE',  ( 1.999999999999999112, 12.69999999999999929, 0.000000000000000000 ) ) ;
#172 = EDGE_CURVE ( 'NONE', #70, #166, #94, .T. ) ;
#173 = APPROVAL ( #102, 'UNSPECIFIED' ) ;
#174 = CALENDAR_DATE ( 2021, 5, 1 ) ;
#175 = DIRECTION ( 'NONE',  ( -1.000000000000000000, -0.000000000000000000, -0.000000000000000000 ) ) ;
ENDSEC;
END-ISO-10303-21;
